Drakulino
В этой жизни каждый должен чем нибудь блеснуть, кто талантом, а кто голой задницей
Нашел аккорды песенки, которая мне давно нравится. Буду разучивать :)
Тяжелые они конечно. Надеюсь упорства хватит.


INTRO
Bsus2 Some chords:
e|-----------------------------| Bm = x24432 Asus2 = x02200
B|---------2--------------2----| G = 320033 Bsus2 = x24422
G|-----4-----4--------4-----4--| D = xx0232 Csus2 = x35533
D|---4---4----------4---4------| A = x02220 E/G# = 476454
A|-2--------------2------------| A#dim = x12320 Bsus4 = 779977
E|-----------------------------| C#m = x46650 B = 799877

VERSES
Bm Gadd9
e|-----------------------------------------------------------------------|
B|---------3------------3----------3----------0------------0----------0--|
G|-----4-----4------4-----4----2h4--------2-----2------2-----2----0h2----|
D|---4---4--------4---4------4----------0---0--------0---0------0--------|
A|-2------------2--------------------------------------------------------|
E|------------------------------------3------------3---------------------|
Bm Bsus2 Gadd9
e|-----------------------------------------------------------------------|
B|---------3------------2----------3----------0------------0----------0--|
G|-----4-----4------4-----4----2h4--------2-----2------2-----2----0h2----|
D|---4---4--------4---4------4----------0---0--------0---0------0--------|
A|-2------------2--------------------------------------------------------|
E|------------------------------------3------------3---------------------|

PRE-CHORUS
Asus2 Gadd9 Asus2 Em7 F#7
e|-------0-----------------0--0-000--2---|
B|----------------3-----------3-333--2---|
G|-----2--------2--------2----0-000--3---|
D|---2--------0--------2------2-222--2---|
A|-0-----------------0--------2-222--4---|
E|----------3-----------------0-000--2---|

VERSE1
Bm
You say you really know me, you’re not afraid to show me
Gadd9
What is in your eyes
Bm Bsus2
So tell me about the rumours, are they only rumours?
Gadd9
Are they only lies?

PRE-CHORUS
Asus2 Gadd9 Asus2 Em7 F#7
Falling out of a perfect dream, coming out of the blu---e

CHORUS (strum the chords)
Bm G D A
Is it true? Is it over? Did I throw it away?
Bm G D A
Was it you? Did you tell me you would never leave me this way?

[originally posted on www.ultimate-guitar.com]

VERSE2
Bm
If you really knew me, you couldn’t do this to me
Gadd9
You would be my friend
Bm Bsus2
If one of us is lying, there’s no use in trying
Gadd9
No need to pretend

PRE-CHORUS
Asus2 Gadd9 Asus2 Em7 F#7
Falling out of a perfect dream, coming out of the blu---e

CHORUS (strum the chords)
Bm G D A A#dim
Is it true? Is it over? Did I throw it away?
Bm G D A
Was it you? Did you tell me you would never leave me this way?

CHORUS (modulation)
C#m Asus2 E Bsus2
Is it true? Is it over? Did I throw it away?
C#m Asus2 E Bsus2 Csus2
Was it you? Did you tell me you would never leave me this way?
C#m Asus2 E/G# E Bsus2 Csus2
Is it real? Did I dream it? Will I wake from this pain
C#m Asus2 E Bsus4 B
Is it true? Is it over? Baby did I throw it away?
C#m
Is it true?